  0
SECTION
  2
HEADER
  9
$ACADVER
  1
AC1015
  9
$ACADMAINTVER
 70
     6
  9
$DWGCODEPAGE
  3
ANSI_1254
  9
$INSBASE
 10
0.0
 20
0.0
 30
0.0
  9
$EXTMIN
 10
0.0
 20
0.0
 30
0.0
  9
$EXTMAX
 10
279.4
 20
215.9
 30
0.0
  9
$LIMMIN
 10
0.0
 20
0.0
  9
$LIMMAX
 10
279.4
 20
215.9
  9
$ORTHOMODE
 70
     0
  9
$REGENMODE
 70
     1
  9
$FILLMODE
 70
     1
  9
$QTEXTMODE
 70
     0
  9
$MIRRTEXT
 70
     1
  9
$LTSCALE
 40
1.0
  9
$ATTMODE
 70
     1
  9
$TEXTSIZE
 40
3.5
  9
$TRACEWID
 40
1.0
  9
$TEXTSTYLE
  7
Standard
  9
$CLAYER
  8
0
  9
$CELTYPE
  6
ByLayer
  9
$CECOLOR
 62
   256
  9
$CELTSCALE
 40
1.0
  9
$DISPSILH
 70
     0
  9
$DIMSCALE
 40
1.0
  9
$DIMASZ
 40
3.5
  9
$DIMEXO
 40
1.0
  9
$DIMDLI
 40
3.75
  9
$DIMRND
 40
0.0
  9
$DIMDLE
 40
0.0
  9
$DIMEXE
 40
1.0
  9
$DIMTP
 40
0.0
  9
$DIMTM
 40
0.0
  9
$DIMTXT
 40
3.5
  9
$DIMCEN
 40
2.5
  9
$DIMTSZ
 40
0.0
  9
$DIMTOL
 70
     0
  9
$DIMLIM
 70
     0
  9
$DIMTIH
 70
     1
  9
$DIMTOH
 70
     1
  9
$DIMSE1
 70
     0
  9
$DIMSE2
 70
     0
  9
$DIMTAD
 70
     1
  9
$DIMZIN
 70
     0
  9
$DIMBLK
  1

  9
$DIMASO
 70
     1
  9
$DIMSHO
 70
     1
  9
$DIMPOST
  1

  9
$DIMAPOST
  1

  9
$DIMALT
 70
     0
  9
$DIMALTD
 70
     3
  9
$DIMALTF
 40
0.0393700787
  9
$DIMLFAC
 40
1.0
  9
$DIMTOFL
 70
     1
  9
$DIMTVP
 40
0.0
  9
$DIMTIX
 70
     0
  9
$DIMSOXD
 70
     0
  9
$DIMSAH
 70
     0
  9
$DIMBLK1
  1

  9
$DIMBLK2
  1

  9
$DIMSTYLE
  2
ISO-25
  9
$DIMCLRD
 70
     0
  9
$DIMCLRE
 70
     0
  9
$DIMCLRT
 70
     0
  9
$DIMTFAC
 40
1.0
  9
$DIMGAP
 40
1.524
  9
$DIMJUST
 70
     0
  9
$DIMSD1
 70
     0
  9
$DIMSD2
 70
     0
  9
$DIMTOLJ
 70
     0
  9
$DIMTZIN
 70
     0
  9
$DIMALTZ
 70
     0
  9
$DIMALTTZ
 70
     0
  9
$DIMUPT
 70
     0
  9
$DIMDEC
 70
     2
  9
$DIMTDEC
 70
     2
  9
$DIMALTU
 70
     2
  9
$DIMALTTD
 70
     3
  9
$DIMTXSTY
  7
Standard
  9
$DIMAUNIT
 70
     0
  9
$DIMADEC
 70
     2
  9
$DIMALTRND
 40
0.0
  9
$DIMAZIN
 70
     0
  9
$DIMDSEP
 70
    44
  9
$DIMATFIT
 70
     3
  9
$DIMFRAC
 70
     0
  9
$DIMLDRBLK
  1

  9
$DIMLUNIT
 70
     2
  9
$DIMLWD
 70
    -2
  9
$DIMLWE
 70
    -2
  9
$DIMTMOVE
 70
     0
  9
$LUNITS
 70
     2
  9
$LUPREC
 70
     2
  9
$SKETCHINC
 40
1.0
  9
$FILLETRAD
 40
10.0
  9
$AUNITS
 70
     0
  9
$AUPREC
 70
     2
  9
$MENU
  1
.
  9
$ELEVATION
 40
0.0
  9
$PELEVATION
 40
0.0
  9
$THICKNESS
 40
0.0
  9
$LIMCHECK
 70
     0
  9
$CHAMFERA
 40
0.0
  9
$CHAMFERB
 40
0.0
  9
$CHAMFERC
 40
0.0
  9
$CHAMFERD
 40
0.0
  9
$SKPOLY
 70
     0
  9
$TDCREATE
 40
2459898.399867859
  9
$TDUCREATE
 40
2459898.274867859
  9
$TDUPDATE
 40
2459898.399867859
  9
$TDUUPDATE
 40
2459898.274867859
  9
$TDINDWG
 40
0.0000000116
  9
$TDUSRTIMER
 40
0.0000000116
  9
$USRTIMER
 70
     1
  9
$ANGBASE
 50
0.0
  9
$ANGDIR
 70
     0
  9
$PDMODE
 70
     0
  9
$PDSIZE
 40
-1.0
  9
$PLINEWID
 40
0.0
  9
$SPLFRAME
 70
     0
  9
$SPLINETYPE
 70
     6
  9
$SPLINESEGS
 70
     8
  9
$HANDSEED
  5
D2
  9
$SURFTAB1
 70
     6
  9
$SURFTAB2
 70
     6
  9
$SURFTYPE
 70
     6
  9
$SURFU
 70
     6
  9
$SURFV
 70
     6
  9
$UCSBASE
  2

  9
$UCSNAME
  2

  9
$UCSORG
 10
0.0
 20
0.0
 30
0.0
  9
$UCSXDIR
 10
1.0
 20
0.0
 30
0.0
  9
$UCSYDIR
 10
0.0
 20
1.0
 30
0.0
  9
$UCSORTHOREF
  2

  9
$UCSORTHOVIEW
 70
     0
  9
$UCSORGTOP
 10
0.0
 20
0.0
 30
0.0
  9
$UCSORGBOTTOM
 10
0.0
 20
0.0
 30
0.0
  9
$UCSORGLEFT
 10
0.0
 20
0.0
 30
0.0
  9
$UCSORGRIGHT
 10
0.0
 20
0.0
 30
0.0
  9
$UCSORGFRONT
 10
0.0
 20
0.0
 30
0.0
  9
$UCSORGBACK
 10
0.0
 20
0.0
 30
0.0
  9
$PUCSBASE
  2

  9
$PUCSNAME
  2

  9
$PUCSORG
 10
0.0
 20
0.0
 30
0.0
  9
$PUCSXDIR
 10
1.0
 20
0.0
 30
0.0
  9
$PUCSYDIR
 10
0.0
 20
1.0
 30
0.0
  9
$PUCSORTHOREF
  2

  9
$PUCSORTHOVIEW
 70
     0
  9
$PUCSORGTOP
 10
0.0
 20
0.0
 30
0.0
  9
$PUCSORGBOTTOM
 10
0.0
 20
0.0
 30
0.0
  9
$PUCSORGLEFT
 10
0.0
 20
0.0
 30
0.0
  9
$PUCSORGRIGHT
 10
0.0
 20
0.0
 30
0.0
  9
$PUCSORGFRONT
 10
0.0
 20
0.0
 30
0.0
  9
$PUCSORGBACK
 10
0.0
 20
0.0
 30
0.0
  9
$USERI1
 70
     0
  9
$USERI2
 70
     0
  9
$USERI3
 70
     0
  9
$USERI4
 70
     0
  9
$USERI5
 70
     0
  9
$USERR1
 40
0.0
  9
$USERR2
 40
0.0
  9
$USERR3
 40
0.0
  9
$USERR4
 40
0.0
  9
$USERR5
 40
0.0
  9
$WORLDVIEW
 70
     1
  9
$SHADEDGE
 70
     3
  9
$SHADEDIF
 70
    70
  9
$TILEMODE
 70
     1
  9
$MAXACTVP
 70
    64
  9
$PINSBASE
 10
0.0
 20
0.0
 30
0.0
  9
$PLIMCHECK
 70
     0
  9
$PEXTMIN
 10
1.0000000000E+20
 20
1.0000000000E+20
 30
1.0000000000E+20
  9
$PEXTMAX
 10
-1.0000000000E+20
 20
-1.0000000000E+20
 30
-1.0000000000E+20
  9
$PLIMMIN
 10
0.0
 20
0.0
  9
$PLIMMAX
 10
420.0
 20
297.0
  9
$UNITMODE
 70
     0
  9
$VISRETAIN
 70
     1
  9
$PLINEGEN
 70
     0
  9
$PSLTSCALE
 70
     1
  9
$TREEDEPTH
 70
  3020
  9
$CMLSTYLE
  2
Standard
  9
$CMLJUST
 70
     0
  9
$CMLSCALE
 40
20.0
  9
$PROXYGRAPHICS
 70
     1
  9
$MEASUREMENT
 70
     1
  9
$CELWEIGHT
370
    -1
  9
$ENDCAPS
280
     0
  9
$JOINSTYLE
280
     0
  9
$LWDISPLAY
290
     1
  9
$INSUNITS
 70
     4
  9
$HYPERLINKBASE
  1

  9
$STYLESHEET
  1

  9
$XEDIT
290
     1
  9
$CEPSNTYPE
380
     0
  9
$PSTYLEMODE
290
     1
  9
$FINGERPRINTGUID
  2
{72d342cd-0e39-4ad3-9d01-04f61500cf48}
  9
$VERSIONGUID
  2
{FAEB1C32-E019-11D5-929B-00C0DF256EC4}
  9
$EXTNAMES
290
     1
  9
$PSVPSCALE
 40
0.0
  9
$OLESTARTUP
290
     0
  0
ENDSEC
  0
SECTION
  2
CLASSES
  0
CLASS
  1
ACDBDICTIONARYWDFLT
  2
AcDbDictionaryWithDefault
  3
ObjectDBX Classes
 90
        0
280
     0
281
     0
  0
CLASS
  1
VISUALSTYLE
  2
AcDbVisualStyle
  3
ObjectDBX Classes
 90
     4095
280
     0
281
     0
  0
CLASS
  1
MATERIAL
  2
AcDbMaterial
  3
ObjectDBX Classes
 90
     1153
280
     0
281
     0
  0
CLASS
  1
SCALE
  2
AcDbScale
  3
ObjectDBX Classes
 90
     1153
280
     0
281
     0
  0
CLASS
  1
TABLESTYLE
  2
AcDbTableStyle
  3
ObjectDBX Classes
 90
     4095
280
     0
281
     0
  0
CLASS
  1
MLEADERSTYLE
  2
AcDbMLeaderStyle
  3
ACDB_MLEADERSTYLE_CLASS
 90
     4095
280
     0
281
     0
  0
CLASS
  1
SUN
  2
AcDbSun
  3
SCENEOE
 90
     1153
280
     0
281
     0
  0
CLASS
  1
ACDBPLACEHOLDER
  2
AcDbPlaceHolder
  3
ObjectDBX Classes
 90
        0
280
     0
281
     0
  0
CLASS
  1
LAYOUT
  2
AcDbLayout
  3
ObjectDBX Classes
 90
        0
280
     0
281
     0
  0
ENDSEC
  0
SECTION
  2
TABLES
  0
TABLE
  2
VPORT
  5
8
330
0
100
AcDbSymbolTable
 70
     1
  0
VPORT
  5
29
330
8
100
AcDbSymbolTableRecord
100
AcDbViewportTableRecord
  2
*Active
 70
     0
 10
0.0
 20
0.0
 11
1.0
 21
1.0
 12
139.7
 22
107.95
 13
0.0
 23
0.0
 14
10.0
 24
10.0
 15
10.0
 25
10.0
 16
0.0
 26
0.0
 36
1.0
 17
0.0
 27
0.0
 37
0.0
 40
215.9
 41
1.2941176471
 42
50.0
 43
0.0
 44
0.0
 50
0.0
 51
0.0
 71
     0
 72
  2000
 73
     1
 74
     3
 75
     0
 76
     0
 77
     0
 78
     0
281
     0
 65
     1
110
0.0
120
0.0
130
0.0
111
1.0
121
0.0
131
0.0
112
0.0
122
1.0
132
0.0
 79
     0
146
0.0
  0
ENDTAB
  0
TABLE
  2
LTYPE
  5
5
330
0
100
AcDbSymbolTable
 70
     6
  0
LTYPE
  5
14
330
5
100
AcDbSymbolTableRecord
100
AcDbLinetypeTableRecord
  2
ByBlock
 70
     0
  3

 72
    65
 73
     0
 40
0.0
  0
LTYPE
  5
15
330
5
100
AcDbSymbolTableRecord
100
AcDbLinetypeTableRecord
  2
ByLayer
 70
     0
  3

 72
    65
 73
     0
 40
0.0
  0
LTYPE
  5
16
330
5
100
AcDbSymbolTableRecord
100
AcDbLinetypeTableRecord
  2
Continuous
 70
     0
  3
Solid line
 72
    65
 73
     0
 40
0.0
  0
LTYPE
  5
6E
330
5
100
AcDbSymbolTableRecord
100
AcDbLinetypeTableRecord
  2
HIDDEN
 70
     0
  3
Hidden __ __ __ __ __ __ __ __ __ __ __ __ __ __
 72
    65
 73
     2
 40
1.905
 49
1.27
 74
     0
 49
-0.635
 74
     0
  0
LTYPE
  5
6F
330
5
100
AcDbSymbolTableRecord
100
AcDbLinetypeTableRecord
  2
PHANTOM
 70
     0
  3
Phantom ______  __  __  ______  __  __  ______
 72
    65
 73
     6
 40
12.7
 49
6.35
 74
     0
 49
-1.27
 74
     0
 49
1.27
 74
     0
 49
-1.27
 74
     0
 49
1.27
 74
     0
 49
-1.27
 74
     0
  0
LTYPE
  5
70
330
5
100
AcDbSymbolTableRecord
100
AcDbLinetypeTableRecord
  2
CENTER
 70
     0
  3
Center ____ _ ____ _ ____ _ ____ _ ____ _ ____
 72
    65
 73
     4
 40
10.16
 49
6.35
 74
     0
 49
-1.27
 74
     0
 49
1.27
 74
     0
 49
-1.27
 74
     0
  0
LTYPE
  5
71
330
5
100
AcDbSymbolTableRecord
100
AcDbLinetypeTableRecord
  2
CENTERX2
 70
     0
  3
Center (2x) ________  __  ________  __  _____
 72
    65
 73
     4
 40
20.32
 49
12.7
 74
     0
 49
-2.54
 74
     0
 49
2.54
 74
     0
 49
-2.54
 74
     0
  0
LTYPE
  5
72
330
5
100
AcDbSymbolTableRecord
100
AcDbLinetypeTableRecord
  2
DOT2
 70
     0
  3
Dot (.5x) ........................................
 72
    65
 73
     2
 40
0.635
 49
0.0
 74
     0
 49
-0.635
 74
     0
  0
ENDTAB
  0
TABLE
  2
LAYER
  5
2
330
0
100
AcDbSymbolTable
 70
    17
  0
LAYER
  5
10
330
2
100
AcDbSymbolTableRecord
100
AcDbLayerTableRecord
  2
0
 70
     0
 62
     7
  6
Continuous
370
    -3
390
F
  0
LAYER
  5
73
330
2
100
AcDbSymbolTableRecord
100
AcDbLayerTableRecord
  2
FORMAT
 70
     0
 62
     7
  6
Continuous
370
    -3
390
F
  0
LAYER
  5
74
330
2
100
AcDbSymbolTableRecord
100
AcDbLayerTableRecord
  2
YARDIMCI_GEOMETRI
 70
     0
 62
    -6
  6
Continuous
290
     0
370
    -3
390
F
  0
LAYER
  5
75
330
2
100
AcDbSymbolTableRecord
100
AcDbLayerTableRecord
  2
SAYFA_CERCEVESI
 70
     0
 62
     7
  6
Continuous
370
    25
390
F
  0
LAYER
  5
76
330
2
100
AcDbSymbolTableRecord
100
AcDbLayerTableRecord
  2
ANTET
 70
     0
 62
     7
  6
Continuous
370
    -3
390
F
  0
LAYER
  5
77
330
2
100
AcDbSymbolTableRecord
100
AcDbLayerTableRecord
  2
OLCU
 70
     0
 62
   150
  6
Continuous
370
    -3
390
F
  0
LAYER
  5
78
330
2
100
AcDbSymbolTableRecord
100
AcDbLayerTableRecord
  2
METIN
 70
     0
 62
    96
  6
Continuous
370
    -3
390
F
  0
LAYER
  5
79
330
2
100
AcDbSymbolTableRecord
100
AcDbLayerTableRecord
  2
BALON
 70
     0
 62
     5
  6
Continuous
370
    -3
390
F
  0
LAYER
  5
7A
330
2
100
AcDbSymbolTableRecord
100
AcDbLayerTableRecord
  2
VURGU
 70
     0
 62
     7
  6
Continuous
370
    -3
390
F
  0
LAYER
  5
7B
330
2
100
AcDbSymbolTableRecord
100
AcDbLayerTableRecord
  2
SILIK
 70
     0
 62
     7
  6
Continuous
370
    -3
390
F
  0
LAYER
  5
7C
330
2
100
AcDbSymbolTableRecord
100
AcDbLayerTableRecord
  2
MODEL
 70
     0
 62
     7
  6
Continuous
370
    -3
390
F
  0
LAYER
  5
7D
330
2
100
AcDbSymbolTableRecord
100
AcDbLayerTableRecord
  2
DETAYLANDıRMA
 70
     0
 62
   190
  6
Continuous
370
    -3
390
F
  0
LAYER
  5
7E
330
2
100
AcDbSymbolTableRecord
100
AcDbLayerTableRecord
  2
TOLERANS
 70
     0
 62
   230
  6
Continuous
370
    -3
390
F
  0
LAYER
  5
7F
330
2
100
AcDbSymbolTableRecord
100
AcDbLayerTableRecord
  2
MERKEZ_CIZGILERI
 70
     0
 62
    30
  6
Continuous
370
    -3
390
F
  0
LAYER
  5
80
330
2
100
AcDbSymbolTableRecord
100
AcDbLayerTableRecord
  2
KESIT-DETAY_CIZGILERI
 70
     0
 62
     7
  6
Continuous
370
    -3
390
F
  0
LAYER
  5
81
330
2
100
AcDbSymbolTableRecord
100
AcDbLayerTableRecord
  2
\U+041E\U+0421\U+0415\U+0412\U+042B\U+0415
 70
     0
 62
     7
  6
Continuous
370
    -3
390
F
  0
LAYER
  5
82
330
2
100
AcDbSymbolTableRecord
100
AcDbLayerTableRecord
  2
\U+0412\U+041E\U+0414\U+042F\U+041D\U+042B\U+0415_\U+0417\U+041D\U+0410\U+041A\U+0418
 70
     0
 62
    11
  6
Continuous
370
    -3
390
F
  0
ENDTAB
  0
TABLE
  2
STYLE
  5
3
330
0
100
AcDbSymbolTable
 70
     1
  0
STYLE
  5
11
330
3
100
AcDbSymbolTableRecord
100
AcDbTextStyleTableRecord
  2
Standard
 70
     0
 40
0.0
 41
1.0
 50
0.0
 71
     0
 42
3.5
  3
txt
  4

  0
ENDTAB
  0
TABLE
  2
VIEW
  5
6
330
0
100
AcDbSymbolTable
 70
     0
  0
ENDTAB
  0
TABLE
  2
UCS
  5
7
330
0
100
AcDbSymbolTable
 70
     0
  0
ENDTAB
  0
TABLE
  2
APPID
  5
9
330
0
100
AcDbSymbolTable
 70
     1
  0
APPID
  5
12
330
9
100
AcDbSymbolTableRecord
100
AcDbRegAppTableRecord
  2
ACAD
 70
     0
  0
ENDTAB
  0
TABLE
  2
DIMSTYLE
  5
A
330
0
100
AcDbSymbolTable
 70
     1
100
AcDbDimStyleTable
  0
DIMSTYLE
105
27
330
A
100
AcDbSymbolTableRecord
100
AcDbDimStyleTableRecord
  2
ISO-25
 70
     0
 41
2.5
 42
0.625
 43
3.75
 44
1.25
 73
     0
 74
     0
 77
     1
 78
     8
140
2.5
141
2.5
143
0.0393700787
147
0.625
171
     3
172
     1
178
     0
271
     2
272
     2
274
     3
278
    44
283
     0
284
     8
340
11
  0
ENDTAB
  0
TABLE
  2
BLOCK_RECORD
  5
1
330
0
100
AcDbSymbolTable
 70
     1
  0
BLOCK_RECORD
  5
1F
330
1
100
AcDbSymbolTableRecord
100
AcDbBlockTableRecord
  2
*Model_Space
340
22
  0
BLOCK_RECORD
  5
1B
330
1
100
AcDbSymbolTableRecord
100
AcDbBlockTableRecord
  2
*Paper_Space
340
1E
  0
BLOCK_RECORD
  5
23
330
1
100
AcDbSymbolTableRecord
100
AcDbBlockTableRecord
  2
*Paper_Space0
340
26
  0
ENDTAB
  0
ENDSEC
  0
SECTION
  2
BLOCKS
  0
BLOCK
  5
20
330
1F
100
AcDbEntity
  8
0
100
AcDbBlockBegin
  2
*Model_Space
 70
     0
 10
0.0
 20
0.0
 30
0.0
  3
*Model_Space
  1

  0
ENDBLK
  5
21
330
1F
100
AcDbEntity
  8
0
100
AcDbBlockEnd
  0
BLOCK
  5
1C
330
1B
100
AcDbEntity
 67
     1
  8
0
100
AcDbBlockBegin
  2
*Paper_Space
 70
     0
 10
0.0
 20
0.0
 30
0.0
  3
*Paper_Space
  1

  0
ENDBLK
  5
1D
330
1B
100
AcDbEntity
 67
     1
  8
0
100
AcDbBlockEnd
  0
BLOCK
  5
24
330
23
100
AcDbEntity
  8
0
100
AcDbBlockBegin
  2
*Paper_Space0
 70
     0
 10
0.0
 20
0.0
 30
0.0
  3
*Paper_Space0
  1

  0
ENDBLK
  5
25
330
23
100
AcDbEntity
  8
0
100
AcDbBlockEnd
  0
ENDSEC
  0
SECTION
  2
ENTITIES
  0
CIRCLE
  5
83
330
1F
100
AcDbEntity
  8
0
  6
Continuous
 62
     7
370
    25
100
AcDbCircle
 10
128.4629276288
 20
122.0384592625
 30
0.0
 40
177.5
  0
CIRCLE
  5
84
330
1F
100
AcDbEntity
  8
0
  6
Continuous
 62
     7
370
    25
100
AcDbCircle
 10
128.4629276288
 20
122.0384592625
 30
0.0
 40
156.3999999999999
  0
CIRCLE
  5
85
330
1F
100
AcDbEntity
  8
0
  6
Continuous
 62
     7
370
    25
100
AcDbCircle
 10
128.4629276288
 20
122.0384592625
 30
0.0
 40
180.1003421594629
  0
CIRCLE
  5
86
330
1F
100
AcDbEntity
  8
0
  6
Continuous
 62
     7
370
    25
100
AcDbCircle
 10
128.4629276288
 20
122.0384592625
 30
0.0
 40
188.0
  0
CIRCLE
  5
87
330
1F
100
AcDbEntity
  8
0
  6
Continuous
 62
     7
370
    25
100
AcDbCircle
 10
128.4629276288
 20
122.0384592625
 30
0.0
 40
217.5
  0
LINE
  5
88
330
1F
100
AcDbEntity
  8
0
  6
Continuous
 62
     7
370
    25
100
AcDbLine
 10
345.9629276288
 20
468.16018204
 30
0.0
 11
345.9629276288
 21
498.16018204
 31
0.0
  0
LINE
  5
89
330
1F
100
AcDbEntity
  8
0
  6
Continuous
 62
     7
370
    25
100
AcDbLine
 10
-89.0370723712
 20
498.16018204
 30
0.0
 11
-89.0370723712
 21
468.16018204
 31
0.0
  0
ARC
  5
8A
330
1F
100
AcDbEntity
  8
0
  6
Continuous
 62
     7
370
    25
100
AcDbCircle
 10
316.4629276288
 20
506.16018204
 30
0.0
 40
8.000000000000009
100
AcDbArc
 50
189.084255569
 51
270.0
  0
ARC
  5
8B
330
1F
100
AcDbEntity
  8
0
  6
Continuous
 62
     7
370
    25
100
AcDbCircle
 10
-59.5370723712
 20
506.16018204
 30
0.0
 40
8.000000000000009
100
AcDbArc
 50
270.0
 51
350.915744431
  0
LINE
  5
8C
330
1F
100
AcDbEntity
  8
0
  6
Continuous
 62
     7
370
    25
100
AcDbLine
 10
308.5632697883
 20
504.8970882183
 30
0.0
 11
305.9629276288
 21
521.16018204
 31
0.0
  0
LINE
  5
8D
330
1F
100
AcDbEntity
  8
0
  6
Continuous
 62
     7
370
    25
100
AcDbLine
 10
-49.0370723712
 20
521.16018204
 30
0.0
 11
-51.6374145307
 21
504.8970882183
 31
0.0
  0
LINE
  5
8E
330
1F
100
AcDbEntity
  8
0
  6
Continuous
 62
     7
370
    25
100
AcDbLine
 10
305.9629276288
 20
521.16018204
 30
0.0
 11
305.9629276288
 21
695.16018204
 31
0.0
  0
LINE
  5
8F
330
1F
100
AcDbEntity
  8
0
  6
Continuous
 62
     7
370
    25
100
AcDbLine
 10
-49.0370723712
 20
695.16018204
 30
0.0
 11
-49.0370723712
 21
521.16018204
 31
0.0
  0
LINE
  5
90
330
1F
100
AcDbEntity
  8
0
  6
Continuous
 62
     7
370
    25
100
AcDbLine
 10
345.9629276288
 20
498.16018204
 30
0.0
 11
-89.0370723712
 21
498.16018204
 31
0.0
  0
LINE
  5
91
330
1F
100
AcDbEntity
  8
0
  6
Continuous
 62
     7
370
    25
100
AcDbLine
 10
345.9629276288
 20
468.16018204
 30
0.0
 11
-89.0370723712
 21
468.16018204
 31
0.0
  0
LINE
  5
92
330
1F
100
AcDbEntity
  8
0
  6
Continuous
 62
     7
370
    25
100
AcDbLine
 10
305.9629276288
 20
521.16018204
 30
0.0
 11
-49.0370723712
 21
521.16018204
 31
0.0
  0
LINE
  5
93
330
1F
100
AcDbEntity
  8
0
  6
Continuous
 62
     7
370
    25
100
AcDbLine
 10
305.9629276288
 20
695.16018204
 30
0.0
 11
-49.0370723712
 21
695.16018204
 31
0.0
  0
LINE
  5
94
330
1F
100
AcDbEntity
  8
0
  6
Continuous
 62
     1
370
    25
100
AcDbLine
 10
308.5632697883
 20
504.8970882183
 30
0.0
 11
-51.6374145307
 21
504.8970882183
 31
0.0
  0
LINE
  5
95
330
1F
100
AcDbEntity
  8
0
  6
Continuous
 62
     7
370
    25
100
AcDbLine
 10
-227.1356157251
 20
339.5384592625
 30
0.0
 11
-257.1356157251
 21
339.5384592625
 31
0.0
  0
LINE
  5
96
330
1F
100
AcDbEntity
  8
0
  6
Continuous
 62
     7
370
    25
100
AcDbLine
 10
-257.1356157251
 20
-95.4615407375
 30
0.0
 11
-227.1356157251
 21
-95.4615407375
 31
0.0
  0
ARC
  5
97
330
1F
100
AcDbEntity
  8
0
  6
Continuous
 62
     7
370
    25
100
AcDbCircle
 10
-265.1356157251
 20
310.0384592625
 30
0.0
 40
8.000000000000018
100
AcDbArc
 50
279.084255569
 51
0.0
  0
ARC
  5
98
330
1F
100
AcDbEntity
  8
0
  6
Continuous
 62
     7
370
    25
100
AcDbCircle
 10
-265.1356157251
 20
-65.9615407375
 30
0.0
 40
8.000000000000025
100
AcDbArc
 50
0.0
 51
80.915744431
  0
LINE
  5
99
330
1F
100
AcDbEntity
  8
0
  6
Continuous
 62
     7
370
    25
100
AcDbLine
 10
-263.8725219034
 20
302.138801422
 30
0.0
 11
-280.1356157251
 21
299.5384592625
 31
0.0
  0
LINE
  5
9A
330
1F
100
AcDbEntity
  8
0
  6
Continuous
 62
     7
370
    25
100
AcDbLine
 10
-280.1356157251
 20
-55.4615407375
 30
0.0
 11
-263.8725219034
 21
-58.0618828969
 31
0.0
  0
LINE
  5
9B
330
1F
100
AcDbEntity
  8
0
  6
Continuous
 62
     7
370
    25
100
AcDbLine
 10
-280.1356157251
 20
299.5384592625
 30
0.0
 11
-454.1356157251
 21
299.5384592625
 31
0.0
  0
LINE
  5
9C
330
1F
100
AcDbEntity
  8
0
  6
Continuous
 62
     7
370
    25
100
AcDbLine
 10
-454.1356157251
 20
-55.4615407375
 30
0.0
 11
-280.1356157251
 21
-55.4615407375
 31
0.0
  0
LINE
  5
9D
330
1F
100
AcDbEntity
  8
0
  6
Continuous
 62
     7
370
    25
100
AcDbLine
 10
-257.1356157251
 20
339.5384592625
 30
0.0
 11
-257.1356157251
 21
-95.4615407375
 31
0.0
  0
LINE
  5
9E
330
1F
100
AcDbEntity
  8
0
  6
Continuous
 62
     7
370
    25
100
AcDbLine
 10
-227.1356157251
 20
339.5384592625
 30
0.0
 11
-227.1356157251
 21
-95.4615407375
 31
0.0
  0
LINE
  5
9F
330
1F
100
AcDbEntity
  8
0
  6
Continuous
 62
     7
370
    25
100
AcDbLine
 10
-280.1356157251
 20
299.5384592625
 30
0.0
 11
-280.1356157251
 21
-55.4615407375
 31
0.0
  0
LINE
  5
A0
330
1F
100
AcDbEntity
  8
0
  6
Continuous
 62
     7
370
    25
100
AcDbLine
 10
-454.1356157251
 20
299.5384592625
 30
0.0
 11
-454.1356157251
 21
-55.4615407375
 31
0.0
  0
LINE
  5
A1
330
1F
100
AcDbEntity
  8
0
  6
Continuous
 62
     1
370
    25
100
AcDbLine
 10
-263.8725219034
 20
302.138801422
 30
0.0
 11
-263.8725219034
 21
-58.0618828969
 31
0.0
  0
LINE
  5
A2
330
1F
100
AcDbEntity
  8
0
  6
Continuous
 62
     7
370
    25
100
AcDbLine
 10
-89.0370723712
 20
-248.4113899908
 30
0.0
 11
-89.0370723712
 21
-278.4113899908
 31
0.0
  0
LINE
  5
A3
330
1F
100
AcDbEntity
  8
0
  6
Continuous
 62
     7
370
    25
100
AcDbLine
 10
345.9629276288
 20
-278.4113899908
 30
0.0
 11
345.9629276288
 21
-248.4113899908
 31
0.0
  0
ARC
  5
A4
330
1F
100
AcDbEntity
  8
0
  6
Continuous
 62
     7
370
    25
100
AcDbCircle
 10
-59.5370723712
 20
-286.4113899908
 30
0.0
 40
8.000000000000018
100
AcDbArc
 50
9.084255569
 51
90.0
  0
ARC
  5
A5
330
1F
100
AcDbEntity
  8
0
  6
Continuous
 62
     7
370
    25
100
AcDbCircle
 10
316.4629276288
 20
-286.4113899908
 30
0.0
 40
8.000000000000018
100
AcDbArc
 50
90.0
 51
170.915744431
  0
LINE
  5
A6
330
1F
100
AcDbEntity
  8
0
  6
Continuous
 62
     7
370
    25
100
AcDbLine
 10
-51.6374145307
 20
-285.1482961691
 30
0.0
 11
-49.0370723712
 21
-301.4113899908
 31
0.0
  0
LINE
  5
A7
330
1F
100
AcDbEntity
  8
0
  6
Continuous
 62
     7
370
    25
100
AcDbLine
 10
305.9629276288
 20
-301.4113899908
 30
0.0
 11
308.5632697883
 21
-285.1482961691
 31
0.0
  0
LINE
  5
A8
330
1F
100
AcDbEntity
  8
0
  6
Continuous
 62
     7
370
    25
100
AcDbLine
 10
-49.0370723712
 20
-301.4113899908
 30
0.0
 11
-49.0370723712
 21
-475.4113899908
 31
0.0
  0
LINE
  5
A9
330
1F
100
AcDbEntity
  8
0
  6
Continuous
 62
     7
370
    25
100
AcDbLine
 10
305.9629276288
 20
-475.4113899908
 30
0.0
 11
305.9629276288
 21
-301.4113899908
 31
0.0
  0
LINE
  5
AA
330
1F
100
AcDbEntity
  8
0
  6
Continuous
 62
     7
370
    25
100
AcDbLine
 10
-89.0370723712
 20
-278.4113899908
 30
0.0
 11
345.9629276288
 21
-278.4113899908
 31
0.0
  0
LINE
  5
AB
330
1F
100
AcDbEntity
  8
0
  6
Continuous
 62
     7
370
    25
100
AcDbLine
 10
-89.0370723712
 20
-248.4113899908
 30
0.0
 11
345.9629276288
 21
-248.4113899908
 31
0.0
  0
LINE
  5
AC
330
1F
100
AcDbEntity
  8
0
  6
Continuous
 62
     7
370
    25
100
AcDbLine
 10
-49.0370723712
 20
-301.4113899908
 30
0.0
 11
305.9629276288
 21
-301.4113899908
 31
0.0
  0
LINE
  5
AD
330
1F
100
AcDbEntity
  8
0
  6
Continuous
 62
     7
370
    25
100
AcDbLine
 10
-49.0370723712
 20
-475.4113899908
 30
0.0
 11
305.9629276288
 21
-475.4113899908
 31
0.0
  0
LINE
  5
AE
330
1F
100
AcDbEntity
  8
0
  6
Continuous
 62
     1
370
    25
100
AcDbLine
 10
-51.6374145307
 20
-285.1482961691
 30
0.0
 11
308.5632697883
 21
-285.1482961691
 31
0.0
  0
LINE
  5
AF
330
1F
100
AcDbEntity
  8
0
  6
Continuous
 62
     7
370
    25
100
AcDbLine
 10
512.5102644537
 20
-95.4615407375
 30
0.0
 11
542.5102644537
 21
-95.4615407375
 31
0.0
  0
LINE
  5
B0
330
1F
100
AcDbEntity
  8
0
  6
Continuous
 62
     7
370
    25
100
AcDbLine
 10
542.5102644537
 20
339.5384592625
 30
0.0
 11
512.5102644537
 21
339.5384592625
 31
0.0
  0
ARC
  5
B1
330
1F
100
AcDbEntity
  8
0
  6
Continuous
 62
     7
370
    25
100
AcDbCircle
 10
550.5102644537
 20
-65.9615407375
 30
0.0
 40
8.000000000000016
100
AcDbArc
 50
99.084255569
 51
180.0
  0
ARC
  5
B2
330
1F
100
AcDbEntity
  8
0
  6
Continuous
 62
     7
370
    25
100
AcDbCircle
 10
550.5102644537
 20
310.0384592625
 30
0.0
 40
8.000000000000009
100
AcDbArc
 50
180.0
 51
260.915744431
  0
LINE
  5
B3
330
1F
100
AcDbEntity
  8
0
  6
Continuous
 62
     7
370
    25
100
AcDbLine
 10
549.247170632
 20
-58.0618828969
 30
0.0
 11
565.5102644537
 21
-55.4615407375
 31
0.0
  0
LINE
  5
B4
330
1F
100
AcDbEntity
  8
0
  6
Continuous
 62
     7
370
    25
100
AcDbLine
 10
565.5102644537
 20
299.5384592625
 30
0.0
 11
549.247170632
 21
302.138801422
 31
0.0
  0
LINE
  5
B5
330
1F
100
AcDbEntity
  8
0
  6
Continuous
 62
     7
370
    25
100
AcDbLine
 10
565.5102644537
 20
-55.4615407375
 30
0.0
 11
739.5102644537
 21
-55.4615407375
 31
0.0
  0
LINE
  5
B6
330
1F
100
AcDbEntity
  8
0
  6
Continuous
 62
     7
370
    25
100
AcDbLine
 10
739.5102644537
 20
299.5384592625
 30
0.0
 11
565.5102644537
 21
299.5384592625
 31
0.0
  0
LINE
  5
B7
330
1F
100
AcDbEntity
  8
0
  6
Continuous
 62
     7
370
    25
100
AcDbLine
 10
542.5102644537
 20
122.0384592625
 30
0.0
 11
542.5102644537
 21
339.5384592625
 31
0.0
  0
LINE
  5
B8
330
1F
100
AcDbEntity
  8
0
  6
Continuous
 62
     7
370
    25
100
AcDbLine
 10
542.5102644537
 20
-95.4615407375
 30
0.0
 11
542.5102644537
 21
122.0384592625
 31
0.0
  0
LINE
  5
B9
330
1F
100
AcDbEntity
  8
0
  6
Continuous
 62
     7
370
    25
100
AcDbLine
 10
512.5102644537
 20
122.0384592625
 30
0.0
 11
512.5102644537
 21
339.5384592625
 31
0.0
  0
LINE
  5
BA
330
1F
100
AcDbEntity
  8
0
  6
Continuous
 62
     7
370
    25
100
AcDbLine
 10
512.5102644537
 20
-95.4615407375
 30
0.0
 11
512.5102644537
 21
122.0384592625
 31
0.0
  0
LINE
  5
BB
330
1F
100
AcDbEntity
  8
0
  6
Continuous
 62
     7
370
    25
100
AcDbLine
 10
565.5102644537
 20
122.0384592625
 30
0.0
 11
565.5102644537
 21
299.5384592625
 31
0.0
  0
LINE
  5
BC
330
1F
100
AcDbEntity
  8
0
  6
Continuous
 62
     7
370
    25
100
AcDbLine
 10
565.5102644537
 20
-55.4615407375
 30
0.0
 11
565.5102644537
 21
122.0384592625
 31
0.0
  0
LINE
  5
BD
330
1F
100
AcDbEntity
  8
0
  6
Continuous
 62
     7
370
    25
100
AcDbLine
 10
739.5102644537
 20
122.0384592625
 30
0.0
 11
739.5102644537
 21
299.5384592625
 31
0.0
  0
LINE
  5
BE
330
1F
100
AcDbEntity
  8
0
  6
Continuous
 62
     7
370
    25
100
AcDbLine
 10
739.5102644537
 20
-55.4615407375
 30
0.0
 11
739.5102644537
 21
122.0384592625
 31
0.0
  0
LINE
  5
BF
330
1F
100
AcDbEntity
  8
0
  6
Continuous
 62
     1
370
    25
100
AcDbLine
 10
549.247170632
 20
122.0384592625
 30
0.0
 11
549.247170632
 21
302.138801422
 31
0.0
  0
LINE
  5
C0
330
1F
100
AcDbEntity
  8
0
  6
Continuous
 62
     1
370
    25
100
AcDbLine
 10
549.247170632
 20
-58.0618828969
 30
0.0
 11
549.247170632
 21
122.0384592625
 31
0.0
  0
LINE
  5
C1
330
1F
100
AcDbEntity
  8
0
  6
Continuous
 62
     7
370
    25
100
AcDbLine
 10
736.4996001221
 20
-253.4938873648
 30
0.0
 11
613.4630201957
 21
-182.4663816362
 31
0.0
  0
LINE
  5
C2
330
1F
100
AcDbEntity
  8
0
  6
Continuous
 62
     7
370
    25
100
AcDbLine
 10
435.9774451528
 20
-489.9137277814
 30
0.0
 11
559.0140250792
 21
-560.9412335099
 31
0.0
  0
LINE
  5
C3
330
1F
100
AcDbEntity
  8
0
  6
Continuous
 62
     7
370
    25
100
AcDbLine
 10
793.9746341777
 20
-240.4867478329
 30
0.0
 11
772.7614307421
 21
-228.2406261555
 31
0.0
  0
LINE
  5
C4
330
1F
100
AcDbEntity
  8
0
  6
Continuous
 62
     7
370
    25
100
AcDbLine
 10
555.2791063938
 20
-604.9718812911
 30
0.0
 11
576.4923098294
 21
-617.2180029685
 31
0.0
  0
LINE
  5
C5
330
1F
100
AcDbEntity
  8
0
  6
Continuous
 62
     7
370
    25
100
AcDbLine
 10
738.5391606161
 20
-253.0023856893
 30
0.0
 11
731.4655669131
 21
-250.587801851
 31
0.0
  0
LINE
  5
C6
330
1F
100
AcDbEntity
  8
0
  6
Continuous
 62
     7
370
    25
100
AcDbLine
 10
553.9799918702
 20
-558.0351479961
 30
0.0
 11
559.6083411948
 21
-562.9532397873
 31
0.0
  0
LWPOLYLINE
  5
C7
330
1F
100
AcDbEntity
  8
0
  6
Continuous
 62
     7
370
    25
100
AcDbPolyline
 90
       73
 70
   128
 43
0.0
 10
736.4996001221
 20
-253.4938873648
 10
736.9997884461
 20
-253.7859129433
 10
740.842646491
 20
-256.2594006669
 10
744.5006912291
 20
-259.0326018434
 10
747.9666599513
 20
-262.1000105385
 10
751.2336712974
 20
-265.4555366962
 10
754.2952389188
 20
-269.09251823
 10
757.1452843565
 20
-273.0037342496
 10
759.7781491089
 20
-277.1814193976
 10
762.1886058669
 20
-281.617279267
 10
764.3718688917
 20
-286.3025068685
 10
766.3236035166
 20
-291.2278001165
 10
768.0399347532
 20
-296.383380297
 10
769.5174549848
 20
-301.759011483
 10
770.7532307315
 20
-307.3440208561
 10
771.7448084752
 20
-313.1273198974
 10
772.4902195299
 20
-319.0974264018
 10
772.9879839511
 20
-325.2424872756
 10
773.2371134734
 20
-331.5503020692
 10
773.2371134734
 20
-338.0083472002
 10
772.9879839511
 20
-344.6038008177
 10
772.4902195299
 20
-351.3235682592
 10
771.7448084752
 20
-358.1543080484
 10
770.7532307315
 20
-365.0824583836
 10
769.5174549848
 20
-372.0942640638
 10
768.0399347532
 20
-379.1758037977
 10
766.3236035166
 20
-386.3130178438
 10
764.3718688917
 20
-393.4917359242
 10
762.1886058669
 20
-400.6977053587
 10
759.7781491089
 20
-407.9166193619
 10
757.1452843565
 20
-415.1341454483
 10
754.2952389188
 20
-422.3359538879
 10
751.2336712974
 20
-429.5077461568
 10
747.9666599513
 20
-436.6352833253
 10
744.5006912291
 20
-443.7044143279
 10
740.842646491
 20
-450.7011040596
 10
736.9997884461
 20
-457.6114612404
 10
732.9797467334
 20
-464.4217659959
 10
728.7905027736
 20
-471.1184970962
 10
724.4403739228
 20
-477.6883588018
 10
719.9379969591
 20
-484.1183072604
 10
715.2923109353
 20
-490.3955764044
 10
710.512539431
 20
-496.507703297
 10
705.6081722399
 20
-502.442552876
 10
700.5889465293
 20
-508.1883420471
 10
695.4648275072
 20
-513.7336630775
 10
690.2459886375
 20
-519.0675062457
 10
684.9427914418
 20
-524.1792816999
 10
679.5657649271
 20
-529.058840483
 10
674.1255846821
 20
-533.6964946827
 10
668.6330516808
 20
-538.0830366659
 10
663.0990708393
 20
-542.2097573595
 10
657.5346293642
 20
-546.0684635417
 10
651.9507749389
 20
-549.6514941083
 10
646.3585937897
 20
-552.951735284
 10
640.7691886745
 20
-555.9626347453
 10
635.1936568398
 20
-558.6782146301
 10
629.6430679879
 20
-561.0930834059
 10
624.1284422993
 20
-563.2024465741
 10
618.6607285528
 20
-565.0021161896
 10
613.2507823879
 20
-566.4885191749
 10
607.9093447519
 20
-567.6587044145
 10
602.6470205749
 20
-568.5103486138
 10
597.4742577144
 20
-569.0417609121
 10
592.4013262123
 20
-569.2518862396
 10
587.4382979044
 20
-569.1403074118
 10
582.5950264241
 20
-568.7072459582
 10
577.8811276386
 20
-567.9535616822
 10
573.3059605576
 20
-566.8807509541
 10
568.8786087519
 20
-565.4909437404
 10
564.6078623185
 20
-563.7868993746
 10
560.5022004294
 20
-561.7720010791
 10
559.0140250792
 20
-560.9412335099
  0
LWPOLYLINE
  5
C8
330
1F
100
AcDbEntity
  8
0
  6
Continuous
 62
     7
370
    25
100
AcDbPolyline
 90
      142
 70
   128
 43
0.0
 10
399.2087790136
 20
-408.646274633
 10
399.3333747003
 20
-402.1179048735
 10
399.7069143871
 20
-395.4586414699
 10
400.3286564456
 20
-388.6817057736
 10
401.1973664645
 20
-381.8005527628
 10
402.3113197004
 20
-374.8288443302
 10
403.6683045023
 20
-367.7804221573
 10
405.2656267025
 20
-360.6692802339
 10
407.1001149656
 20
-353.5095370742
 10
409.168127085
 20
-346.3154076855
 10
411.465557214
 20
-339.1011753456
 10
413.9878440178
 20
-331.8811632452
 10
416.7299797294
 20
-324.6697060499
 10
419.6865200921
 20
-317.4811214405
 10
422.8515951689
 20
-310.3296816864
 10
426.2189209959
 20
-303.2295853091
 10
429.7818120596
 20
-296.1949288929
 10
433.5331945695
 20
-289.2396790968
 10
437.4656205029
 20
-282.3776449256
 10
441.5712823921
 20
-275.6224503129
 10
445.8420288254
 20
-268.9875070723
 10
450.2693806312
 20
-262.4859882695
 10
454.8445477122
 20
-256.1308020682
 10
459.5584464977
 20
-249.9345661024
 10
464.401717978
 20
-243.9095824251
 10
469.3647462858
 20
-238.0678130836
 10
474.437677788
 20
-232.4208563702
 10
479.6104406484
 20
-226.9799237948
 10
484.8727648254
 20
-221.7558178253
 10
490.2142024614
 20
-216.7589104406
 10
495.6241486263
 20
-211.9991225378
 10
501.0918623728
 20
-207.4859042352
 10
506.6064880614
 20
-203.2282161099
 10
512.1570769133
 20
-199.2345114076
 10
517.732608748
 20
-195.5127192593
 10
523.3220138632
 20
-192.0702289389
 10
528.9141950125
 20
-188.9138751921
 10
534.4980494377
 20
-186.0499246673
 10
540.0624909128
 20
-183.484063473
 10
545.5964717544
 20
-181.2213858892
 10
551.0890047556
 20
-179.2663842527
 10
556.5291850007
 20
-177.6229400384
 10
561.9062115153
 20
-176.2943161526
 10
567.209408711
 20
-175.283150455
 10
572.4282475807
 20
-174.5914505216
 10
577.5523666029
 20
-174.2205896585
 10
582.5715923135
 20
-174.1713041757
 10
587.4759595045
 20
-174.4436919249
 10
592.2557310089
 20
-175.0372121054
 10
596.9014170327
 20
-175.9506863379
 10
601.4037939963
 20
-177.1823010039
 10
605.7539228471
 20
-178.7296108463
 10
609.9431668069
 20
-180.5895438249
 10
613.9632085196
 20
-182.7584072147
 10
617.8060665645
 20
-185.2318949383
 10
621.4641113027
 20
-188.0050961148
 10
624.9300800248
 20
-191.0725048099
 10
628.1970913709
 20
-194.4280309676
 10
631.2586589924
 20
-198.0650125014
 10
634.10870443
 20
-201.976228521
 10
636.7415691825
 20
-206.153913669
 10
639.1520259405
 20
-210.5897735384
 10
641.3352889652
 20
-215.2750011399
 10
643.2870235902
 20
-220.2002943879
 10
645.0033548268
 20
-225.3558745685
 10
646.4808750583
 20
-230.7315057544
 10
647.7166508051
 20
-236.3165151275
 10
648.7082285487
 20
-242.0998141688
 10
649.4536396035
 20
-248.0699206733
 10
649.9514040246
 20
-254.2149815471
 10
650.200533547
 20
-260.5227963406
 10
650.200533547
 20
-266.9808414716
 10
649.9514040246
 20
-273.5762950892
 10
649.4536396035
 20
-280.2960625306
 10
648.7082285487
 20
-287.1268023198
 10
647.7166508051
 20
-294.054952655
 10
646.4808750583
 20
-301.0667583352
 10
645.0033548268
 20
-308.1482980692
 10
643.2870235902
 20
-315.2855121153
 10
641.3352889652
 20
-322.4642301957
 10
639.1520259405
 20
-329.6701996301
 10
636.7415691825
 20
-336.8891136333
 10
634.10870443
 20
-344.1066397197
 10
631.2586589924
 20
-351.3084481594
 10
628.1970913709
 20
-358.4802404283
 10
624.9300800248
 20
-365.6077775967
 10
621.4641113027
 20
-372.6769085994
 10
617.8060665645
 20
-379.673598331
 10
613.9632085196
 20
-386.5839555118
 10
609.9431668069
 20
-393.3942602673
 10
605.7539228471
 20
-400.0909913677
 10
601.4037939963
 20
-406.6608530733
 10
596.9014170326
 20
-413.0908015318
 10
592.2557310089
 20
-419.3680706758
 10
587.4759595045
 20
-425.4801975684
 10
582.5715923135
 20
-431.4150471475
 10
577.5523666029
 20
-437.1608363185
 10
572.4282475807
 20
-442.7061573489
 10
567.209408711
 20
-448.0400005171
 10
561.9062115153
 20
-453.1517759713
 10
556.5291850007
 20
-458.0313347544
 10
551.0890047556
 20
-462.6689889541
 10
545.5964717544
 20
-467.0555309373
 10
540.0624909128
 20
-471.182251631
 10
534.4980494377
 20
-475.0409578131
 10
528.9141950125
 20
-478.6239883798
 10
523.3220138632
 20
-481.9242295554
 10
517.732608748
 20
-484.9351290168
 10
512.1570769133
 20
-487.6507089015
 10
506.6064880614
 20
-490.0655776773
 10
501.0918623728
 20
-492.1749408456
 10
495.6241486263
 20
-493.9746104611
 10
490.2142024614
 20
-495.4610134464
 10
484.8727648254
 20
-496.6311986859
 10
479.6104406484
 20
-497.4828428852
 10
474.437677788
 20
-498.0142551836
 10
469.3647462858
 20
-498.2243805111
 10
464.401717978
 20
-498.1128016833
 10
459.5584464977
 20
-497.6797402296
 10
454.8445477122
 20
-496.9260559536
 10
450.2693806312
 20
-495.8532452255
 10
445.8420288254
 20
-494.4634380118
 10
441.5712823921
 20
-492.759393646
 10
437.4656205029
 20
-490.7444953505
 10
433.5331945695
 20
-488.4227435194
 10
429.7818120596
 20
-485.7987477759
 10
426.2189209959
 20
-482.8777178208
 10
422.8515951689
 20
-479.6654530886
 10
419.6865200921
 20
-476.1683312337
 10
416.7299797294
 20
-472.3932954678
 10
413.9878440178
 20
-468.3478407748
 10
411.465557214
 20
-464.0399990308
 10
409.168127085
 20
-459.4783230566
 10
407.1001149656
 20
-454.6718696378
 10
405.2656267025
 20
-449.6301815426
 10
403.6683045023
 20
-444.3632685761
 10
402.3113197004
 20
-438.8815877065
 10
401.1973664645
 20
-433.1960223037
 10
400.3286564456
 20
-427.3178605315
 10
399.7069143871
 20
-421.258772936
 10
399.3333747003
 20
-415.0307892748
 10
399.2087790136
 20
-408.646274633
  0
LWPOLYLINE
  5
C9
330
1F
100
AcDbEntity
  8
0
  6
Continuous
 62
     7
370
    25
100
AcDbPolyline
 90
      133
 70
   128
 43
0.0
 10
414.1287320966
 20
-400.0331690533
 10
414.253994756
 20
-393.8843135451
 10
414.629498974
 20
-387.6047619841
 10
415.2543941127
 20
-381.2087395744
 10
416.1272645837
 20
-374.710735364
 10
417.2461330547
 20
-368.1254694224
 10
418.6084649285
 20
-361.4678594949
 10
420.2111740855
 20
-354.7529872093
 10
422.0506298739
 20
-347.9960639112
 10
424.1226653346
 20
-341.212396205
 10
426.4225866409
 20
-334.41735128
 10
428.9451837314
 20
-327.6263220984
 10
431.6847421122
 20
-320.8546925255
 10
434.6350558025
 20
-314.1178024804
 10
437.7894413929
 20
-307.4309131858
 10
441.1407531855
 20
-300.8091725966
 10
444.6813993811
 20
-294.2675810851
 10
448.4033592773
 20
-287.82095746
 10
452.2982014379
 20
-281.4839053974
 10
456.3571027926
 20
-275.2707803583
 10
460.5708686243
 20
-269.1956570693
 10
464.9299533983
 20
-263.2722976387
 10
469.4244823854
 20
-257.5141203806
 10
474.0442740319
 20
-251.9341694187
 10
478.7788630239
 20
-246.5450851365
 10
483.6175239944
 20
-241.3590755432
 10
488.5492958201
 20
-236.3878886186
 10
493.5630064516
 20
-231.6427857
 10
498.6472982216
 20
-227.1345159716
 10
503.7906535742
 20
-222.8732921145
 10
508.9814211551
 20
-218.8687671711
 10
514.2078422062
 20
-215.1300126785
 10
519.4580772029
 20
-211.6654981182
 10
524.7202326742
 20
-208.4830717298
 10
529.9823881455
 20
-205.5899427329
 10
535.2326231422
 20
-202.9926649949
 10
540.4590441933
 20
-200.6971221855
 10
545.6498117742
 20
-198.7085144474
 10
550.7931671268
 20
-197.0313466167
 10
555.8774588969
 20
-195.669418018
 10
560.8911695283
 20
-194.6258138576
 10
565.822941354
 20
-193.9028982346
 10
570.6616023245
 20
-193.5023087854
 10
575.3961913165
 20
-193.424952974
 10
580.015982963
 20
-193.6710060361
 10
584.5105119501
 20
-194.2399105824
 10
588.8695967241
 20
-195.1303778611
 10
593.0833625559
 20
-196.3403906775
 10
597.1422639105
 20
-197.8672079634
 10
601.0371060711
 20
-199.7073709864
 10
604.7590659673
 20
-201.8567111855
 10
608.2997121629
 20
-204.3103596139
 10
611.6510239555
 20
-207.0627579687
 10
614.8054095459
 20
-210.1076711823
 10
617.7557232362
 20
-213.438201547
 10
620.495281617
 20
-217.0468043402
 10
623.0178787075
 20
-220.9253049161
 10
625.3178000138
 20
-225.0649172233
 10
627.3898354746
 20
-229.4562637085
 10
629.2292912629
 20
-234.0893965596
 10
630.8320004199
 20
-238.9538202404
 10
632.1943322937
 20
-244.0385152667
 10
633.3132007647
 20
-249.331963169
 10
634.1860712357
 20
-254.8221725851
 10
634.8109663744
 20
-260.4967064249
 10
635.1864705924
 20
-266.3427100441
 10
635.3117332518
 20
-272.3469403642
 10
635.1864705924
 20
-278.4957958725
 10
634.8109663744
 20
-284.7753474335
 10
634.1860712357
 20
-291.1713698431
 10
633.3132007647
 20
-297.6693740535
 10
632.1943322937
 20
-304.2546399952
 10
630.8320004199
 20
-310.9122499227
 10
629.2292912629
 20
-317.6271222082
 10
627.3898354746
 20
-324.3840455064
 10
625.3178000138
 20
-331.1677132125
 10
623.0178787075
 20
-337.9627581376
 10
620.495281617
 20
-344.7537873192
 10
617.7557232362
 20
-351.525416892
 10
614.8054095459
 20
-358.2623069371
 10
611.6510239555
 20
-364.9491962318
 10
608.2997121629
 20
-371.570936821
 10
604.7590659673
 20
-378.1125283325
 10
601.0371060711
 20
-384.5591519575
 10
597.1422639105
 20
-390.8962040202
 10
593.0833625559
 20
-397.1093290592
 10
588.8695967241
 20
-403.1844523482
 10
584.5105119501
 20
-409.1078117789
 10
580.015982963
 20
-414.8659890369
 10
575.3961913165
 20
-420.4459399989
 10
570.6616023245
 20
-425.8350242811
 10
565.822941354
 20
-431.0210338744
 10
560.8911695283
 20
-435.9922207989
 10
555.8774588969
 20
-440.7373237176
 10
550.7931671268
 20
-445.2455934459
 10
545.6498117742
 20
-449.5068173031
 10
540.4590441933
 20
-453.5113422464
 10
535.2326231422
 20
-457.250096739
 10
529.9823881455
 20
-460.7146112994
 10
524.7202326742
 20
-463.8970376877
 10
519.4580772029
 20
-466.7901666847
 10
514.2078422062
 20
-469.3874444226
 10
508.9814211551
 20
-471.6829872321
 10
503.7906535742
 20
-473.6715949702
 10
498.6472982216
 20
-475.3487628009
 10
493.5630064515
 20
-476.7106913996
 10
488.5492958201
 20
-477.75429556
 10
483.6175239944
 20
-478.4772111829
 10
478.7788630239
 20
-478.8778006321
 10
474.0442740319
 20
-478.9551564436
 10
469.4244823854
 20
-478.7091033815
 10
464.9299533983
 20
-478.1401988352
 10
460.5708686243
 20
-477.2497315564
 10
456.3571027926
 20
-476.03971874
 10
452.2982014379
 20
-474.5129014542
 10
448.4033592773
 20
-472.6727384312
 10
444.6813993811
 20
-470.523398232
 10
441.1407531855
 20
-468.0697498036
 10
437.7894413929
 20
-465.3173514489
 10
434.6350558025
 20
-462.2724382353
 10
431.6847421122
 20
-458.9419078706
 10
428.9451837314
 20
-455.3333050773
 10
426.4225866409
 20
-451.4548045015
 10
424.1226653346
 20
-447.3151921943
 10
422.0506298739
 20
-442.923845709
 10
420.2111740855
 20
-438.290712858
 10
418.6084649285
 20
-433.4262891772
 10
417.2461330547
 20
-428.3415941508
 10
416.1272645837
 20
-423.0481462486
 10
415.2543941127
 20
-417.5579368325
 10
414.629498974
 20
-411.8834029927
 10
414.253994756
 20
-406.0373993735
 10
414.1287320966
 20
-400.0331690533
  0
LWPOLYLINE
  5
CA
330
1F
100
AcDbEntity
  8
0
  6
Continuous
 62
     7
370
    25
100
AcDbPolyline
 90
       30
 70
   128
 43
0.0
 10
539.4957141262
 20
-454.2224126535
 10
539.6322990332
 20
-453.01057574
 10
540.5051695042
 20
-446.5125715296
 10
541.6240379752
 20
-439.9273055879
 10
542.986369849
 20
-433.2696956604
 10
544.589079006
 20
-426.5548233749
 10
546.4285347944
 20
-419.7979000768
 10
548.5005702551
 20
-413.0142323706
 10
550.8004915614
 20
-406.2191874456
 10
553.3230886519
 20
-399.428158264
 10
556.0626470327
 20
-392.6565286911
 10
559.0129607231
 20
-385.919638646
 10
562.1673463135
 20
-379.2327493513
 10
565.518658106
 20
-372.6110087621
 10
569.0593043016
 20
-366.0694172506
 10
572.7812641978
 20
-359.6227936256
 10
576.6761063584
 20
-353.285741563
 10
580.7350077131
 20
-347.0726165239
 10
584.9487735448
 20
-340.9974932349
 10
589.3078583188
 20
-335.0741338042
 10
593.8023873059
 20
-329.3159565462
 10
598.4221789524
 20
-323.7360055842
 10
603.1567679444
 20
-318.346921302
 10
607.9954289149
 20
-313.1609117088
 10
612.9272007406
 20
-308.1897247842
 10
617.9409113721
 20
-303.4446218656
 10
623.0252031422
 20
-298.9363521372
 10
628.1685584947
 20
-294.67512828
 10
633.3593260756
 20
-290.6706033367
 10
634.3226561427
 20
-289.9595329296
  0
LWPOLYLINE
  5
CB
330
1F
100
AcDbEntity
  8
0
  6
Continuous
 62
     7
370
    25
100
AcDbPolyline
 90
      110
 70
   128
 43
0.0
 10
689.9089234799
 20
-226.5976622415
 10
694.7833651425
 20
-224.8386017321
 10
700.8259946389
 20
-222.921798001
 10
706.8089251131
 20
-221.3191511654
 10
712.7224522298
 20
-220.0332607242
 10
718.5569842266
 20
-219.0662123966
 10
724.3030574711
 20
-218.4195747383
 10
729.9513518116
 20
-218.0943965981
 10
735.492705694
 20
-218.0912054161
 10
740.918131022
 20
-218.4100063684
 10
746.2188277359
 20
-219.0502823587
 10
751.3861980862
 20
-220.0109948569
 10
756.4118605793
 20
-221.290585584
 10
761.2876635724
 20
-222.886979039
 10
766.0056984951
 20
-224.797585866
 10
770.5583126774
 20
-227.0193070536
 10
774.9381217627
 20
-229.5485389621
 10
779.1380216844
 20
-232.3811791679
 10
783.1512001896
 20
-235.5126331183
 10
786.9711478881
 20
-238.9378215836
 10
790.5916688107
 20
-242.6511888956
 10
794.0068904593
 20
-246.6467119588
 10
797.2112733318
 20
-250.9179100203
 10
800.1996199075
 20
-255.4578551811
 10
802.9670830774
 20
-260.2591836337
 10
805.509174006
 20
-265.3141076057
 10
807.8217694126
 20
-270.614427992
 10
809.9011182589
 20
-276.1515476535
 10
811.7438478336
 20
-281.9164853618
 10
813.3469692226
 20
-287.899890367
 10
814.7078821569
 20
-294.0920575642
 10
815.8243792311
 20
-300.4829432356
 10
816.6946494825
 20
-307.0621813413
 10
817.3172813299
 20
-313.8191003329
 10
817.6912648619
 20
-320.7427404632
 10
817.815993476
 20
-327.8218715626
 10
817.6912648619
 20
-335.0450112545
 10
817.3172813299
 20
-342.40044358
 10
816.6946494825
 20
-349.8762380009
 10
815.8243792311
 20
-357.4602687513
 10
814.7078821569
 20
-365.1402345056
 10
813.3469692226
 20
-372.9036783313
 10
811.7438478336
 20
-380.738007894
 10
809.9011182589
 20
-388.6305158827
 10
807.8217694126
 20
-396.5684006205
 10
805.509174006
 20
-404.5387868293
 10
802.9670830774
 20
-412.5287465135
 10
800.1996199075
 20
-420.5253199293
 10
797.2112733318
 20
-428.5155366054
 10
794.0068904593
 20
-436.4864363811
 10
790.5916688107
 20
-444.4250904279
 10
786.9711478881
 20
-452.3186222197
 10
783.1512001896
 20
-460.1542284193
 10
779.1380216844
 20
-467.9191996447
 10
774.9381217627
 20
-475.6009410841
 10
770.5583126774
 20
-483.1869929249
 10
766.0056984951
 20
-490.6650505633
 10
761.2876635724
 20
-498.0229845623
 10
756.4118605793
 20
-505.2488603263
 10
751.3861980862
 20
-512.3309574581
 10
746.2188277359
 20
-519.2577887704
 10
740.918131022
 20
-526.0181189175
 10
735.492705694
 20
-532.6009826192
 10
729.9513518116
 20
-538.9957024464
 10
724.3030574711
 20
-545.1919061402
 10
718.5569842266
 20
-551.1795434356
 10
712.7224522298
 20
-556.9489023629
 10
706.8089251131
 20
-562.490625001
 10
700.8259946389
 20
-567.7957226553
 10
694.7833651425
 20
-572.8555904382
 10
688.6908377909
 20
-577.6620212255
 10
682.5582946858
 20
-582.207218969
 10
676.3956828346
 20
-586.4838113412
 10
670.2129980162
 20
-590.4848616938
 10
664.020268568
 20
-594.2038803085
 10
657.8275391197
 20
-597.6348349233
 10
651.6448543013
 20
-600.7721605175
 10
645.4822424501
 20
-603.6107683373
 10
639.349699345
 20
-606.1460541506
 10
633.2571719934
 20
-608.3739057145
 10
627.214542497
 20
-610.2907094456
 10
621.2316120228
 20
-611.8933562812
 10
615.3180849061
 20
-613.1792467224
 10
609.4835529093
 20
-614.1462950501
 10
603.7374796648
 20
-614.7929327083
 10
598.0891853243
 20
-615.1181108485
 10
592.5478314419
 20
-615.1213020305
 10
587.1224061139
 20
-614.8025010782
 10
581.8217094
 20
-614.162225088
 10
576.6543390497
 20
-613.2015125897
 10
571.6286765566
 20
-611.9219218627
 10
566.7528735635
 20
-610.3255284076
 10
562.0348386408
 20
-608.4149215807
 10
557.4822244585
 20
-606.193200393
 10
553.1024153732
 20
-603.6639684846
 10
548.9025154515
 20
-600.8313282787
 10
544.8893369463
 20
-597.6998743283
 10
541.0693892478
 20
-594.274685863
 10
537.4488683252
 20
-590.5613185511
 10
534.0336466766
 20
-586.5657954879
 10
530.8292638041
 20
-582.2945974264
 10
527.8409172284
 20
-577.7546522655
 10
525.0734540585
 20
-572.9533238129
 10
522.5313631299
 20
-567.8983998409
 10
520.2187677233
 20
-562.5980794546
 10
518.139418877
 20
-557.0609597931
 10
516.2966893023
 20
-551.2960220848
 10
514.6935679133
 20
-545.3126170796
 10
513.332654979
 20
-539.1204498824
 10
512.423348437
 20
-534.0450083866
  0
LWPOLYLINE
  5
CC
330
1F
100
AcDbEntity
  8
0
  6
Continuous
 62
     7
370
    25
100
AcDbPolyline
 90
       80
 70
   128
 43
0.0
 10
793.9746341777
 20
-240.4867478329
 10
796.1513251983
 20
-241.7946606394
 10
800.35122512
 20
-244.6273008452
 10
804.3644036252
 20
-247.7587547957
 10
808.1843513237
 20
-251.183943261
 10
811.8048722463
 20
-254.8973105729
 10
815.2200938949
 20
-258.8928336361
 10
818.4244767674
 20
-263.1640316976
 10
821.4128233431
 20
-267.7039768585
 10
824.180286513
 20
-272.505305311
 10
826.7223774416
 20
-277.5602292831
 10
829.0349728482
 20
-282.8605496693
 10
831.1143216945
 20
-288.3976693308
 10
832.9570512692
 20
-294.1626070392
 10
834.5601726582
 20
-300.1460120444
 10
835.9210855925
 20
-306.3381792416
 10
837.0375826667
 20
-312.729064913
 10
837.9078529181
 20
-319.3083030186
 10
838.5304847655
 20
-326.0652220102
 10
838.9044682975
 20
-332.9888621406
 10
839.0291969116
 20
-340.0679932399
 10
838.9044682975
 20
-347.2911329319
 10
838.5304847655
 20
-354.6465652573
 10
837.9078529181
 20
-362.1223596782
 10
837.0375826666
 20
-369.7063904286
 10
835.9210855925
 20
-377.3863561829
 10
834.5601726581
 20
-385.1498000086
 10
832.9570512692
 20
-392.9841295714
 10
831.1143216945
 20
-400.8766375601
 10
829.0349728482
 20
-408.8145222978
 10
826.7223774416
 20
-416.7849085066
 10
824.180286513
 20
-424.7748681908
 10
821.4128233431
 20
-432.7714416066
 10
818.4244767674
 20
-440.7616582827
 10
815.2200938949
 20
-448.7325580585
 10
811.8048722463
 20
-456.6712121052
 10
808.1843513237
 20
-464.5647438971
 10
804.3644036252
 20
-472.4003500967
 10
800.35122512
 20
-480.165321322
 10
796.1513251983
 20
-487.8470627615
 10
791.771516113
 20
-495.4331146023
 10
787.2189019307
 20
-502.9111722406
 10
782.500867008
 20
-510.2691062397
 10
777.6250640149
 20
-517.4949820036
 10
772.5994015218
 20
-524.5770791354
 10
767.4320311715
 20
-531.5039104478
 10
762.1313344576
 20
-538.2642405949
 10
756.7059091296
 20
-544.8471042965
 10
751.1645552472
 20
-551.2418241237
 10
745.5162609067
 20
-557.4380278175
 10
739.7701876622
 20
-563.4256651129
 10
733.9356556654
 20
-569.1950240403
 10
728.0221285487
 20
-574.7367466783
 10
722.0391980745
 20
-580.0418443326
 10
715.9965685781
 20
-585.1017121155
 10
709.9040412265
 20
-589.9081429028
 10
703.7714981214
 20
-594.4533406463
 10
697.6088862702
 20
-598.7299330186
 10
691.4262014518
 20
-602.7309833712
 10
685.2334720035
 20
-606.4500019858
 10
679.0407425553
 20
-609.8809566007
 10
672.8580577369
 20
-613.0182821948
 10
666.6954458857
 20
-615.8568900147
 10
660.5629027806
 20
-618.392175828
 10
654.470375429
 20
-620.6200273919
 10
648.4277459326
 20
-622.5368311229
 10
642.4448154584
 20
-624.1394779586
 10
636.5312883417
 20
-625.4253683997
 10
630.6967563449
 20
-626.3924167274
 10
624.9506831004
 20
-627.0390543856
 10
619.3023887599
 20
-627.3642325258
 10
613.7610348775
 20
-627.3674237079
 10
608.3356095495
 20
-627.0486227556
 10
603.0349128356
 20
-626.4083467653
 10
597.8675424853
 20
-625.4476342671
 10
592.8418799921
 20
-624.16804354
 10
587.9660769991
 20
-622.571650085
 10
583.2480420764
 20
-620.661043258
 10
578.6954278941
 20
-618.4393220704
 10
576.4923098294
 20
-617.2180029685
  0
LINE
  5
CD
330
1F
100
AcDbEntity
  8
0
  6
Continuous
 62
     7
370
    25
100
AcDbLine
 10
559.6083411948
 20
-562.9532397873
 30
0.0
 11
559.510532895
 21
-562.8675942737
 31
0.0
  0
ARC
  5
CE
330
1F
100
AcDbEntity
  8
0
  6
Continuous
 62
     7
370
    25
100
AcDbCircle
 10
857.2202570574
 20
-528.1382330534
 30
0.0
 40
299.6356183532367
100
AcDbArc
 50
142.1157790879
 51
157.8895974448
  0
LWPOLYLINE
  5
CF
330
1F
100
AcDbEntity
  8
0
  6
Continuous
 62
     1
370
    25
100
AcDbPolyline
 90
       90
 70
   128
 43
0.0
 10
721.7857509197
 20
-244.9997630228
 10
723.7295291271
 20
-244.9832306847
 10
728.8185380634
 20
-245.16098433
 10
733.7858950193
 20
-245.6606085547
 10
738.6222743012
 20
-246.4811653663
 10
743.3185961123
 20
-247.6211142554
 10
747.8660435992
 20
-249.0783150869
 10
752.2560794043
 20
-250.8500321185
 10
756.4804616942
 20
-252.9329391366
 10
760.5312596325
 20
-255.323125701
 10
764.4008682693
 20
-258.0161044861
 10
768.0820228187
 20
-261.0068197057
 10
771.5678122977
 20
-264.2896566043
 10
774.8516925007
 20
-267.8584519988
 10
777.9274982859
 20
-271.7065058487
 10
780.7894551492
 20
-275.8265938349
 10
783.4321900657
 20
-280.2109809228
 10
785.8507415767
 20
-284.8514358838
 10
788.0405691044
 20
-289.7392467484
 10
789.9975614765
 20
-294.8652371625
 10
791.7180446443
 20
-300.2197836148
 10
793.1987885804
 20
-305.7928335037
 10
794.4370133427
 20
-311.5739240104
 10
795.4303942937
 20
-317.5522017415
 10
796.1770664644
 20
-323.7164431053
 10
796.6756280559
 20
-330.0550753826
 10
796.9251430708
 20
-336.5561984537
 10
796.9251430708
 20
-343.2076071393
 10
796.6756280559
 20
-349.9968141146
 10
796.1770664644
 20
-356.9110733529
 10
795.4303942937
 20
-363.9374040549
 10
794.4370133427
 20
-371.0626150189
 10
793.1987885804
 20
-378.2733294058
 10
791.7180446443
 20
-385.5560098528
 10
789.9975614765
 20
-392.8969838883
 10
788.0405691044
 20
-400.2824696005
 10
785.8507415767
 20
-407.6986015118
 10
783.4321900657
 20
-415.1314566094
 10
780.7894551492
 20
-422.5670804845
 10
777.9274982859
 20
-429.9915135301
 10
774.8516925007
 20
-437.3908171491
 10
771.5678122977
 20
-444.751099922
 10
768.0820228187
 20
-452.0585436869
 10
764.4008682693
 20
-459.2994294818
 10
760.5312596325
 20
-466.4601633001
 10
756.4804616942
 20
-473.5273016123
 10
752.2560794043
 20
-480.4875766046
 10
747.8660435992
 20
-487.3279210881
 10
743.3185961123
 20
-494.0354930307
 10
738.6222743012
 20
-500.5976996669
 10
733.7858950193
 20
-507.0022211394
 10
728.8185380634
 20
-513.2370336284
 10
723.7295291271
 20
-519.2904319248
 10
718.5284222931
 20
-525.151051406
 10
713.2249820959
 20
-530.8078893711
 10
707.8291651903
 20
-536.250325698
 10
702.3511016589
 20
-541.4681427811
 10
696.8010759934
 20
-546.4515447141
 10
691.1895077872
 20
-551.1911756805
 10
685.5269321732
 20
-555.6781375185
 10
679.8239800455
 20
-559.9040064259
 10
674.0913581007
 20
-563.8608487756
 10
668.3398287377
 20
-567.5412360093
 10
662.5801898518
 20
-570.9382585847
 10
656.8232545632
 20
-574.0455389469
 10
651.0798309164
 20
-576.8572435015
 10
645.3607015892
 20
-579.3680935671
 10
639.6766036493
 20
-581.573375285
 10
634.0382083967
 20
-583.4689484693
 10
628.4561013292
 20
-585.0512543794
 10
622.9407622698
 20
-586.3173224012
 10
617.502545691
 20
-587.2647756243
 10
612.1516612765
 20
-587.8918353043
 10
606.8981547525
 20
-588.1973242022
 10
601.7518890286
 20
-588.1806687944
 10
596.722525681
 20
-587.8419003498
 10
591.8195068138
 20
-587.1816548708
 10
587.0520373328
 20
-586.2011718991
 10
582.4290676636
 20
-584.9022921892
 10
577.9592769489
 20
-583.287454252
 10
573.6510567535
 20
-581.359689777
 10
569.5124953109
 20
-579.1226179405
 10
565.5513623376
 20
-576.5804386112
 10
561.775094447
 20
-573.7379244652
 10
558.1907811873
 20
-570.6004120257
 10
554.8051517324
 20
-567.1737916445
 10
551.6245622476
 20
-563.4644964434
 10
548.6549839574
 20
-559.4794902365
 10
545.9019919348
 20
-555.2262544566
 10
544.3001758768
 20
-552.4471091679
  0
LWPOLYLINE
  5
D0
330
1F
100
AcDbEntity
  8
0
  6
Continuous
 62
     1
370
    25
100
AcDbPolyline
 90
       78
 70
   128
 43
0.0
 10
738.5391606161
 20
-253.0023856893
 10
739.9104525571
 20
-253.4884656561
 10
744.1909119137
 20
-255.2485238602
 10
748.3051082811
 20
-257.3190640802
 10
752.2449879267
 20
-259.6960331365
 10
756.0028383511
 20
-262.3747780005
 10
759.5713033856
 20
-265.3500549033
 10
762.9433975924
 20
-268.6160396007
 10
766.1125199386
 20
-272.1663387743
 10
769.0724667185
 20
-275.9940025466
 10
771.8174436973
 20
-280.0915380862
 10
774.3420774535
 20
-284.4509242748
 10
776.6414258981
 20
-289.0636274091
 10
778.7109879484
 20
-293.9206179063
 10
780.5467123397
 20
-299.0123879793
 10
782.1450055552
 20
-304.328970249
 10
783.5027388609
 20
-309.8599572561
 10
784.61725443
 20
-315.5945218338
 10
785.486370546
 20
-321.5214383025
 10
786.1083858734
 20
-327.6291044449
 10
786.4820827878
 20
-333.9055642179
 10
786.60672976
 20
-340.3385311565
 10
786.4820827878
 20
-346.915412426
 10
786.1083858734
 20
-353.6233334724
 10
785.486370546
 20
-360.4491632253
 10
784.61725443
 20
-367.3795398023
 10
783.5027388609
 20
-374.4008966659
 10
782.1450055552
 20
-381.4994891803
 10
780.5467123397
 20
-388.6614215173
 10
778.7109879484
 20
-395.872673858
 10
776.6414258981
 20
-403.1191298374
 10
774.3420774535
 20
-410.3866041775
 10
771.8174436973
 20
-417.660870456
 10
769.0724667185
 20
-424.9276889551
 10
766.1125199386
 20
-432.1728345364
 10
762.9433975924
 20
-439.3821244871
 10
759.5713033856
 20
-446.5414462836
 10
756.0028383511
 20
-453.6367852173
 10
752.2449879267
 20
-460.654251829
 10
748.3051082811
 20
-467.5801090983
 10
744.1909119137
 20
-474.4007993344
 10
739.9104525571
 20
-481.1029707158
 10
735.4721094115
 20
-487.6735034273
 10
730.884570742
 20
-494.0995353426
 10
726.1568168711
 20
-500.3684872024
 10
721.2981025988
 20
-506.468087239
 10
716.3179390867
 20
-512.386395199
 10
711.2260752386
 20
-518.1118257167
 10
706.0324786172
 20
-523.6331709928
 10
700.7473159316
 20
-528.9396227347
 10
695.3809331361
 20
-534.0207933141
 10
689.9438351769
 20
-538.8667361007
 10
684.4466654288
 20
-543.4679649342
 10
678.9001848595
 20
-547.8154726929
 10
673.3152509653
 20
-551.9007489262
 10
667.7027965165
 20
-555.7157965142
 10
662.0738081563
 20
-559.2531473219
 10
656.4393048938
 20
-562.5058768191
 10
650.8103165336
 20
-565.467617635
 10
645.1978620848
 20
-568.1325720228
 10
639.6129281906
 20
-570.4955232094
 10
634.0664476213
 20
-572.5518456066
 10
628.5692778732
 20
-574.2975138669
 10
623.132179914
 20
-575.7291107626
 10
617.7657971185
 20
-576.8438338757
 10
612.480634433
 20
-577.6395010832
 10
607.2870378115
 20
-578.1145548293
 10
602.1951739634
 20
-578.2680651739
 10
597.2150104513
 20
-578.0997316134
 10
592.3562961791
 20
-577.6098836685
 10
587.6285423081
 20
-576.7994802396
 10
583.0410036387
 20
-575.6701077296
 10
578.6026604931
 20
-574.223976938
 10
574.3222011365
 20
-572.4639187339
 10
570.208004769
 20
-570.3933785139
 10
566.2681251234
 20
-568.0164094576
 10
562.510274699
 20
-565.3376645936
 10
559.6083411948
 20
-562.9532397873
  0
ENDSEC
  0
SECTION
  2
OBJECTS
  0
DICTIONARY
  5
C
330
0
100
AcDbDictionary
281
     1
  3
ACAD_GROUP
350
D
  3
ACAD_LAYOUT
350
1A
  3
ACAD_MLINESTYLE
350
17
  3
ACAD_PLOTSETTINGS
350
19
  3
ACAD_PLOTSTYLENAME
350
E
  3
ACAD_SCALELIST
350
47
  3
DWGPROPS
350
D1
  0
DICTIONARY
  5
D
102
{ACAD_REACTORS
330
C
102
}
330
C
100
AcDbDictionary
281
     1
  0
DICTIONARY
  5
1A
102
{ACAD_REACTORS
330
C
102
}
330
C
100
AcDbDictionary
281
     1
  3
Layout1
350
1E
  3
Layout2
350
26
  3
Model
350
22
  0
DICTIONARY
  5
17
102
{ACAD_REACTORS
330
C
102
}
330
C
100
AcDbDictionary
281
     1
  3
Standard
350
18
  0
DICTIONARY
  5
19
102
{ACAD_REACTORS
330
C
102
}
330
C
100
AcDbDictionary
281
     1
  0
ACDBDICTIONARYWDFLT
  5
E
102
{ACAD_REACTORS
330
C
102
}
330
C
100
AcDbDictionary
281
     1
  3
Normal
350
F
100
AcDbDictionaryWithDefault
340
F
  0
DICTIONARY
  5
47
102
{ACAD_REACTORS
330
C
102
}
330
C
100
AcDbDictionary
281
     1
  3
A0
350
48
  3
A1
350
49
  3
A2
350
4A
  3
A3
350
4B
  3
A4
350
4C
  3
A5
350
4D
  3
A6
350
4E
  3
A7
350
4F
  3
A8
350
50
  3
A9
350
51
  3
B0
350
52
  3
B1
350
53
  3
B2
350
54
  3
B3
350
55
  3
B4
350
56
  3
B5
350
57
  3
B6
350
58
  3
B7
350
59
  3
B8
350
5A
  3
B9
350
5B
  3
C0
350
5C
  3
C1
350
5D
  3
C2
350
5E
  3
C3
350
5F
  3
C4
350
60
  3
C5
350
61
  3
C6
350
62
  3
C7
350
63
  3
C8
350
64
  3
C9
350
65
  3
D0
350
66
  3
D1
350
67
  3
D2
350
68
  0
XRECORD
  5
D1
102
{ACAD_REACTORS
330
C
102
}
330
C
100
AcDbXrecord
280
     1
  1
DWGPROPS COOKIE
  2

  3

  4

  6

  7

  8
b.kav
  9

300
=
301
=
302
=
303
=
304
=
305
=
306
=
307
=
308
=
309
=
 40
0.0
 41
2459898.274867859
 42
2459898.274867859
  1

 90
        0
  0
LAYOUT
  5
1E
102
{ACAD_REACTORS
330
1A
102
}
330
1A
100
AcDbPlotSettings
  1

  2
none_device
  4

  6

 40
0.0
 41
0.0
 42
0.0
 43
0.0
 44
0.0
 45
0.0
 46
0.0
 47
0.0
 48
0.0
 49
0.0
140
0.0
141
0.0
142
1.0
143
1.0
 70
   688
 72
     1
 73
     0
 74
     5
  7

 75
    16
147
1.0
148
0.0
149
0.0
100
AcDbLayout
  1
Layout1
 70
     1
 71
     1
 10
0.0
 20
0.0
 11
420.0
 21
297.0
 12
0.0
 22
0.0
 32
0.0
 14
1.0000000000E+20
 24
1.0000000000E+20
 34
1.0000000000E+20
 15
-1.0000000000E+20
 25
-1.0000000000E+20
 35
-1.0000000000E+20
146
0.0
 13
0.0
 23
0.0
 33
0.0
 16
1.0
 26
0.0
 36
0.0
 17
0.0
 27
1.0
 37
0.0
 76
     0
330
1B
  0
LAYOUT
  5
26
102
{ACAD_REACTORS
330
1A
102
}
330
1A
100
AcDbPlotSettings
  1

  2
none_device
  4

  6

 40
0.0
 41
0.0
 42
0.0
 43
0.0
 44
0.0
 45
0.0
 46
0.0
 47
0.0
 48
0.0
 49
0.0
140
0.0
141
0.0
142
1.0
143
1.0
 70
   688
 72
     1
 73
     0
 74
     5
  7

 75
    16
147
1.0
148
0.0
149
0.0
100
AcDbLayout
  1
Layout2
 70
     1
 71
     2
 10
0.0
 20
0.0
 11
0.0
 21
0.0
 12
0.0
 22
0.0
 32
0.0
 14
0.0
 24
0.0
 34
0.0
 15
0.0
 25
0.0
 35
0.0
146
0.0
 13
0.0
 23
0.0
 33
0.0
 16
1.0
 26
0.0
 36
0.0
 17
0.0
 27
1.0
 37
0.0
 76
     0
330
23
  0
LAYOUT
  5
22
102
{ACAD_REACTORS
330
1A
102
}
330
1A
100
AcDbPlotSettings
  1

  2
none_device
  4
Letter_(8.50_x_11.00_Inches)
  6

 40
6.35
 41
6.35
 42
6.35000508
 43
6.35000508
 44
215.9
 45
279.4
 46
0.0
 47
0.0
 48
0.0
 49
0.0
140
0.0
141
0.0
142
1.0
143
1.0
 70
  1712
 72
     1
 73
     0
 74
     0
  7

 75
     0
147
1.0
148
0.0
149
0.0
100
AcDbLayout
  1
Model
 70
     1
 71
     0
 10
0.0
 20
0.0
 11
279.4
 21
215.9
 12
0.0
 22
0.0
 32
0.0
 14
0.0
 24
0.0
 34
0.0
 15
279.4
 25
215.9
 35
0.0
146
0.0
 13
0.0
 23
0.0
 33
0.0
 16
1.0
 26
0.0
 36
0.0
 17
0.0
 27
1.0
 37
0.0
 76
     0
330
1F
331
29
  0
MLINESTYLE
  5
18
102
{ACAD_REACTORS
330
17
102
}
330
17
100
AcDbMlineStyle
  2
Standard
 70
     0
  3

 62
   256
 51
90.0
 52
90.0
 71
     2
 49
0.5
 62
   256
  6
BYLAYER
 49
-0.5
 62
   256
  6
BYLAYER
  0
ACDBPLACEHOLDER
  5
F
102
{ACAD_REACTORS
330
E
102
}
330
E
  0
SCALE
  5
48
102
{ACAD_REACTORS
330
47
102
}
330
47
100
AcDbScale
 70
     0
300
1:1
140
1.0
141
1.0
290
     1
  0
SCALE
  5
49
102
{ACAD_REACTORS
330
47
102
}
330
47
100
AcDbScale
 70
     0
300
1:2
140
1.0
141
2.0
290
     0
  0
SCALE
  5
4A
102
{ACAD_REACTORS
330
47
102
}
330
47
100
AcDbScale
 70
     0
300
1:4
140
1.0
141
4.0
290
     0
  0
SCALE
  5
4B
102
{ACAD_REACTORS
330
47
102
}
330
47
100
AcDbScale
 70
     0
300
1:5
140
1.0
141
5.0
290
     0
  0
SCALE
  5
4C
102
{ACAD_REACTORS
330
47
102
}
330
47
100
AcDbScale
 70
     0
300
1:8
140
1.0
141
8.0
290
     0
  0
SCALE
  5
4D
102
{ACAD_REACTORS
330
47
102
}
330
47
100
AcDbScale
 70
     0
300
1:10
140
1.0
141
10.0
290
     0
  0
SCALE
  5
4E
102
{ACAD_REACTORS
330
47
102
}
330
47
100
AcDbScale
 70
     0
300
1:16
140
1.0
141
16.0
290
     0
  0
SCALE
  5
4F
102
{ACAD_REACTORS
330
47
102
}
330
47
100
AcDbScale
 70
     0
300
1:20
140
1.0
141
20.0
290
     0
  0
SCALE
  5
50
102
{ACAD_REACTORS
330
47
102
}
330
47
100
AcDbScale
 70
     0
300
1:30
140
1.0
141
30.0
290
     0
  0
SCALE
  5
51
102
{ACAD_REACTORS
330
47
102
}
330
47
100
AcDbScale
 70
     0
300
1:40
140
1.0
141
40.0
290
     0
  0
SCALE
  5
52
102
{ACAD_REACTORS
330
47
102
}
330
47
100
AcDbScale
 70
     0
300
1:50
140
1.0
141
50.0
290
     0
  0
SCALE
  5
53
102
{ACAD_REACTORS
330
47
102
}
330
47
100
AcDbScale
 70
     0
300
1:100
140
1.0
141
100.0
290
     0
  0
SCALE
  5
54
102
{ACAD_REACTORS
330
47
102
}
330
47
100
AcDbScale
 70
     0
300
2:1
140
2.0
141
1.0
290
     0
  0
SCALE
  5
55
102
{ACAD_REACTORS
330
47
102
}
330
47
100
AcDbScale
 70
     0
300
4:1
140
4.0
141
1.0
290
     0
  0
SCALE
  5
56
102
{ACAD_REACTORS
330
47
102
}
330
47
100
AcDbScale
 70
     0
300
8:1
140
8.0
141
1.0
290
     0
  0
SCALE
  5
57
102
{ACAD_REACTORS
330
47
102
}
330
47
100
AcDbScale
 70
     0
300
10:1
140
10.0
141
1.0
290
     0
  0
SCALE
  5
58
102
{ACAD_REACTORS
330
47
102
}
330
47
100
AcDbScale
 70
     0
300
100:1
140
100.0
141
1.0
290
     0
  0
SCALE
  5
59
102
{ACAD_REACTORS
330
47
102
}
330
47
100
AcDbScale
 70
     0
300
1/128" = 1'-0"
140
0.0078125
141
12.0
290
     0
  0
SCALE
  5
5A
102
{ACAD_REACTORS
330
47
102
}
330
47
100
AcDbScale
 70
     0
300
1/64" = 1'-0"
140
0.015625
141
12.0
290
     0
  0
SCALE
  5
5B
102
{ACAD_REACTORS
330
47
102
}
330
47
100
AcDbScale
 70
     0
300
1/32" = 1'-0"
140
0.03125
141
12.0
290
     0
  0
SCALE
  5
5C
102
{ACAD_REACTORS
330
47
102
}
330
47
100
AcDbScale
 70
     0
300
1/16" = 1'-0"
140
0.0625
141
12.0
290
     0
  0
SCALE
  5
5D
102
{ACAD_REACTORS
330
47
102
}
330
47
100
AcDbScale
 70
     0
300
3/32" = 1'-0"
140
0.09375
141
12.0
290
     0
  0
SCALE
  5
5E
102
{ACAD_REACTORS
330
47
102
}
330
47
100
AcDbScale
 70
     0
300
1/8" = 1'-0"
140
0.125
141
12.0
290
     0
  0
SCALE
  5
5F
102
{ACAD_REACTORS
330
47
102
}
330
47
100
AcDbScale
 70
     0
300
3/16" = 1'-0"
140
0.1875
141
12.0
290
     0
  0
SCALE
  5
60
102
{ACAD_REACTORS
330
47
102
}
330
47
100
AcDbScale
 70
     0
300
1/4" = 1'-0"
140
0.25
141
12.0
290
     0
  0
SCALE
  5
61
102
{ACAD_REACTORS
330
47
102
}
330
47
100
AcDbScale
 70
     0
300
3/8" = 1'-0"
140
0.375
141
12.0
290
     0
  0
SCALE
  5
62
102
{ACAD_REACTORS
330
47
102
}
330
47
100
AcDbScale
 70
     0
300
1/2" = 1'-0"
140
0.5
141
12.0
290
     0
  0
SCALE
  5
63
102
{ACAD_REACTORS
330
47
102
}
330
47
100
AcDbScale
 70
     0
300
3/4" = 1'-0"
140
0.75
141
12.0
290
     0
  0
SCALE
  5
64
102
{ACAD_REACTORS
330
47
102
}
330
47
100
AcDbScale
 70
     0
300
1" = 1'-0"
140
1.0
141
12.0
290
     0
  0
SCALE
  5
65
102
{ACAD_REACTORS
330
47
102
}
330
47
100
AcDbScale
 70
     0
300
1-1/2" = 1'-0"
140
1.5
141
12.0
290
     0
  0
SCALE
  5
66
102
{ACAD_REACTORS
330
47
102
}
330
47
100
AcDbScale
 70
     0
300
3" = 1'-0"
140
3.0
141
12.0
290
     0
  0
SCALE
  5
67
102
{ACAD_REACTORS
330
47
102
}
330
47
100
AcDbScale
 70
     0
300
6" = 1'-0"
140
6.0
141
12.0
290
     0
  0
SCALE
  5
68
102
{ACAD_REACTORS
330
47
102
}
330
47
100
AcDbScale
 70
     0
300
1'-0" = 1'-0"
140
12.0
141
12.0
290
     0
  0
ENDSEC
  0
EOF
